| Авторская песня 90-х (Сборник песен с гитарными аккордами) | страница 790 | Мир поэзии
Мир поэзии Поиск книг    О проекте    Обратная связь    Размещение рекламы

Филиппов Глеб
«Авторская песня 90-х (Сборник песен с гитарными аккордами)»

Главная страница / Филиппов Глеб «Авторская песня 90-х (Сборник песен с гитарными аккордами)»

g -0---0--0---0- -2---2--5---5-


d ------------ 1------4------


a 3------3------ ---0------0---


e ---3------3--- ------------


— kov.


h


Em Em/C Em6 Em7 Em+7


e 7------------ ------------


h --0--0-1----1- 2----2-3---4---


g -0---0---0--0- --0--0-0---0---


d -------2---2- -2---2---2---2-


a ------------ ---2------2---


e 0---0---0---0--- 0------0------


Mirno mozhno, po


c c c c c c c c c c c h h h h h h h h h h h h


Am Em Em6


e 0------0------ ------------


h --1--1---1--1- 0----0-2----2-


g -2---2--2---2- --0--0---0--0-


d ------------ -2------2-----


a 0------0------ ---2------2---


e ---0------0--- 0------0------


etomu mozhete


d d d d d d d d d d d d d d d d d d d d d d d


G Dm


e ------3----3- 1------1---1---


h 3----3---3--3- --3----3---0---


g --4-----4----- -2---2-2---2---


d -5----------- 0------------


a ---5------5--- ---0---0---0---


e 3------3------ ------------


spat'


c


Am h/o


e -----1------0-


h 1---01--1----1-


g --2----2----2- —-> (1)


d ------------


a 0------0------


e ---0------0---


Final:


Spite moi dorogie budet ne


g e e e e e e e e e e e d#c c c c c c c c c c c


C Adim


e 0------0------ 2------5------


Назад  

стр.1032

  Вперед
Наши спонсоры:
Назад  

стр.1032

  Вперед