| Авторская песня 90-х (Сборник песен с гитарными аккордами) | страница 791 | Мир поэзии
Мир поэзии Поиск книг    О проекте    Обратная связь    Размещение рекламы

Филиппов Глеб
«Авторская песня 90-х (Сборник песен с гитарными аккордами)»

Главная страница / Филиппов Глеб «Авторская песня 90-х (Сборник песен с гитарными аккордами)»

h --1--1---1--1- --1--1---4--4- (2) g -0---0--0---0- -2---2--5---5-


d ------------ 1------4------


a 3------3------ ---0------0---


e ---3------3--- ------------


tak…


h


Em h/o


e 7--67-6-7-2-3--- ------------


h --0---------4- 5------------


g ------------ --3-4---------


d ------------ -----4-5------


a ------------ --------6-7---


e 0------------ -----------6-


A Am6 Em


e 0------0------ 2------2------ 3---


h --2--2---2--2- --1---1---1--1- 0---


g -2---2--2---2- -2---2--2---2- 0---


d ------------ ------------ 2---


a 0------0------ 0------0------ 2---


e ---0------0--- ---0------0--- 0---


h/o — hammer-on.


1989


Кони в вагоне


И в штилях, и в штормах, и в тризнах, и в войнах (A) A C#m6 Все видится мне то ли явь, то ли сон, Em F# Как будто загнали коней моих вольных Hm E7 A F#m Сначала в загон, а затем и в вагон. Hm E7 A A7 И медленно, с лязгом, под крики конвойных Dm G C Am Тяжелый состав начинает разгон. Dm Fm E7 A


Крылатые кони под грохот состава Сложили прекрасные крылья свои. Уснувшая стая вздыхает устало, Под грохот состава летя в забытьи. Плененные птицы, летучее стадо, Крылатый табун — это годы мои.


Какие их прежде ласкали ладони! А нынче засады в пути сторожат. Не дремлют стрелки, только вольные кони Не слышат, не видят, не ведают — спят. Влачатся, влекутся в летящем вагоне, И снится им, что они сами летят.


И кажется им, что не будет ни крови, Ни грома, ни дыма, ни новой войны. Ах, вольные кони из дальней любови! Ах, быстрые птицы из

Назад  

стр.1032

  Вперед
Наши спонсоры:
Назад  

стр.1032

  Вперед